AnasayfaGaleriKapıTakvimSSSAramaÜye ListesiKullanıcı GruplarıKayıt OlGiriş yap

Paylaş | 
 

 GİTARLA ÇALMAK İSTEYENLER

Aşağa gitmek 
YazarMesaj
Salus
Site Kurucusu
Site Kurucusu
avatar

Mesaj Sayısı : 1486
Rep : 4003
Reputation : 0
Kayıt tarihi : 10/09/09
Yaş : 25
Nerden : Adana

MesajKonu: GİTARLA ÇALMAK İSTEYENLER   Paz Eyl. 27, 2009 6:11 am

Gm - 355333 || G - 320003
F - 133211 || Am - x02210
C - x32013 || Dm -
xx0231
C/B - x2x013 || D - xx0232
Am7 - x02013 ||

Gm F C
Gm F
C

C C/B Am7
Sometimes I get so weird, I even freak myself out
F
G
I laugh myself to sleep, it's my lullabye
C C/B Am7
Sometimes I
drive so fast, just to feel the danger
F G
I wanna scream, it makes me
feel alive

F G C C/B Am
Is it enough to love, is it enough to
breathe
F G Am
Somebody rip my heart out and leave me here to bleed
Dm
F C C/B Am
Is it enough to die somebody save my life
Gm F Am
I'd rather
be anything but ordinary please

C C/B Am7
To walk within the lines
would make my life so boring
F G
I want to know that I have been to the
extreme
C C/B Am7
So knock me off my feet com'on now give it to me
F
G
Anything to make me feel alive

F G C C/B Am
Is it enough to love,
is it enough to breathe
F G Am
Somebody rip my heart out and leave me here
to bleed
Dm F C C/B Am
Is it enough to die somebody save my life
Gm F
Am
I'd rather be anything but ordinary please
Gm F C
I'd rather be
anything but ordinary please

Am Em D
Let down your defenses, use no
common sense
G
If you look you will see that this world is
Am Em
D
Beautiful accident, turbulent, succulent, opulent permanent
G Am C
D
No way I wanna taste it, don't wanna waste it away

(no
chords)
Sometimes I get so weird I even freak myself out
(no chords) F G

I laugh myself to sleep it's my lullabye

F G C C/B Am
Is it
enough, is it enough, is it enough to breathe
F G Am
Somebody rip my heart
out and leave me here to bleed
Dm F C C/B Am
Is it enough to die somebody
save my life
Gm F Am
I'd rather be anything but ordinary please, is it
enough

Dm F C C/B Am
Is it enough to die somebody save my life
Gm F
Am
I'd rather be anything but ordinary please
Gm F (outro riff)
I'd
rather be anything but ordinary please

Outro riff
Guitar
1
e||------------------------------------------3--
B||-------3----3------1---1------1---1----------
G||---------3----3------2---2------2---2-----0--
D||---------------------------------------------
A||---------------------------------------------
E||---------------------------------------------
||

|| Guitar 2

e||---------------------------------------------
B||-------3----3----3----1----1----1----1----1--
G||--2-3----3----3----2----2----2----2----2--0--
D||---------------------------------------------
A||--------------by
holzeminster----------------
E||---------------------------------------------Complicated
Avril
Lavigne


Artist - Avril Lavigne
Song - Complicated
Album - Lets
Go
Tabbed by - AguitarZplayiN (AguitarZplayiN@hotmail.com)

Intro
(Acoustic):
Dm F
Uh huh
C
Life's like this
Dm F
Uh huh, uh
huh
C
That's the way it is
Dm F C
'Cause life's like this
Dm
F
Uh huh uh huh
C
That's the way it is


INTRO:
Guitar
1
e------------------|----------------|----------------|----------------|
B--1h3-------------|---------------1|-1h3---1/3------|-------------6p5|
G--2---------------|---2----/5------|--2-------------|----------------|
D--0---------------|-3--------------|--0-------------|-3--------------|
A------------------|----------------|----------------|----------------|
E------------------|----------------|----------------|----------------|
Guitar
2
e------------------|----------------|----------------|----------------|
B------------------|----------------|----------------|----------------|
G-----------------2|-----5-5--------|---------------2|---3-5-5--------|
D------------------|-3-5-3-3--------|----------------|-3-5-3-3--------|
A------------------|----------------|----------------|----------------|
E------------------|----------------|----------------|----------------|


Guitar
1
e------------------------|----------------|------------------------|
B--10----------10-10-----|-8/10------5b---|--10----------10-10-----|
G-------------------10-10|----------5-----|-------------------10-10|
D------------------------|----------------|------------------------|
A------------------------|----------------|------------------------|
E------------------------|----------------|------------------------|
Guitar
2
e------8-----------|----13--12------|------8---------|---------------|
B--10--------------|----------------|10----10--------|---------------|
G------------------|10--------------|----------------|(10)-----------|
D------------------|----------------|----------------|---------------|
A------------------|----------------|----------------|---------------|
E------------------|----------------|----------------|---------------|


Guitar
1
e----------------|--------|
B-8/10----10/5b--|6-------|
G----------------|--------|
D----------------|--------|
A----------------|--------|
E----------------|--------|
Guitar
2
e------8-----------|----13--12------|------8---------|---------------|
B--10--------------|----------------|10----10--------|---------------|
G------------------|10--------------|----------------|(10)-----------|
D------------------|----------------|----------------|---------------|
A------------------|----------------|----------------|---------------|
E------------------|----------------|----------------|---------------|


VerseAcoustic)
F
Chill
out, whatcha yelling for?
Dm
Lay back, it's all been done before
Bb
C
And if, you could only let it be, you will see
F
I like, you the way
you are
Dm
When we're, driving in your car
Bb C
And you're, talking
to me one on one, but you become


PRECHORUS: (chords in parentheses
are powerchords played by an electric
Bb (Bb)
Somebody else, round
everyone else
Dm (D)
Watchin' your back, like you can't relax
Bb
You
try to be cool, you look like a fool to
C (let it ring)
Me, tell
me


CHORUS: (acoustic doesn't play here, but here are the chords
anyway)
Dm Bb F
Why'd you have to go and make things so
complicated?
C
I see the way you're
Dm Bb F
Actin' like you're
somebody else, gets me frustrated
C
And life's like this you
Dm
Bb
You fall, and you crawl, and you break
F C
And you take, what you
get, and you turn it into
Gm Bb (let it ring)
Honesty and promise me I'm
never going to find you fakin'
No no no


Why'd you have...
things... -cated see the
way...
e-----------------|-----------------|-----------------|----------------|
B-----1h3---------|-----------------|-----------------|----------------|
G-----2-----------|-----------------|-----------------|----------------|
D-----0-----------|-----3--3--3-----|--------3--------|-----5-----3--5-|
A-----------------|-----------------|-----3-----3-----|--3-----3-------|
E-----------------|-----------------|-----------------|----------------|
Actin
like... else, gets... -ated... and life's
like..
e-----------------|-----------------|-----------------|----------------|
B-----------------|-----------------|-----------------|----------------|
G-------2---------|-----------------|-----------------|----------------|
D-----0---0-------|-----3--3--3-----|--------3--------|-----5-----3--5-|
A-----------------|-----------------|-----3-----3-----|--3-----3-------|
E-----------------|-----------------|-----------------|----------------|
you
fall... crawl... take...
turn...
e-----------------|-----------------|-----------------|----------------|
B-----------------|-----------------|-----------------|----------------|
G------2----------|-----------------|-----------------|----------------|
D----0---0--------|--------3--------|--------3--------|-----5----------|
A-----------------|------1---1------|-----3-----3-----|--3-----3-------|
E-----------------|-----------------|-----------------|----------------|
Gm
Bb (let it
ring)
e----3------------|---1-------------|
B----3------------|---3-------------|
G----3------------|---3-------------|
D----5------------|---3-------------|
A----5------------|---1-------------|
E----3------------|---1-------------|



Verse
2: (Acoustic)
F
You come, over unannounced
Dm
Dressed up, like
you're something else
Bb C
Where you, are and where it's at you see,
you're making me
F
Laugh out, when you strike a pose
Dm
Take off,
all you're preppy clothes
Bb C
You know, you're not fooling anyone, when
you become


Pre-Chorus
Chorus
Bridge:
F
No no (no
no)
Dm
No no (no no)
Bb
No No (no
no)
C
No...


Verse3: Acoustic
F
Chill out, whatcha yelling
for?
Dm
Lay back, it's all been done before
Bb C
And if, you could
only let it be, you will see


Pre-Chorus
Chorus x2

My
World
Avril Lavigne


My World
~~~~~~~~
Tabbed by Charles de
la Cruz (http://members.rogers.com/avrillavigne/)
Tuning - Standard Eb
(Eb-Ab-Db-Gb-Bb-Eb)

Chords written according to fret position
D -
xx0232 || G - 3x0033 || D(V) - x57775
Dsus2 - xx0230 || Gmaj7 - 3x0032 || Em
- x79987
Dsus4 - xx0233 || Gadd6 - 3x0030 ||
Bm - x24432 || A - x0222x ||

Bsus4 - x24430 || Asus4 - x02230 ||
Badd6 - x24433 || C#5 - x466xx ||



D Dsus2 Dsus4 D
D Dsus2 Dsus4 D

D Dsus2 Dsus4 D
Please
tell me what is taking place, Cause I can't seem to find a trace
Bm Bsus4
Badd6 Bm
Guess it must have got erased somehow
Gmaj7 Gadd6 G
Gmaj7
Probably cause I always forget, everytime someone tells me their
name
D Dsus2 Dsus4 D
It's always gotta be the same (in my world)

D
Dsus2 Dsus4 D
Never wore cover up, always beat the boys up
Bm Bsus4 Badd6
Bm
Grew up in a 5000 population town
Gmaj7 Gadd6 G Gmaj7
Made my money
by cutting grass, got fired by a fried chicken ass
D Dsus2 Dsus4 D
All in
a small town Napanee

A G Bm
You know I always stay up without
sleeping
A G Bm
And think to myself
A G Bm
Where do I belong
forever
A Asus4
In who's arms the time and place

G
Can't help
it if I space in a daze
D
My eyes tune out the other way
G D Dsus2
D
I may switch off and go in a daydream
G
In this head my thoughts are
deep
Bm
And sometimes I can't even speak
A G A
Would someone be and
not pretend I'm off again in my world

D Dsus2 Dsus4 D

D Dsus2
Dsus4 D
I never spend less than an hour, washing my hair in the shower
Bm
Bsus4 Badd6 Bm
It always takes five hours to make it straight
Gmaj7 Gadd6
G Gmaj7
So I'll braid it in a zillion braids, so it may take all friggin'
day
D Dsus2 Dsus4 D
There's nothing else better to do anyway

A G
Bm
When you're all alone in the lands of forever
A G Bm
Lay under the
milkyway
A G Bm
On and on it's getting too late out
A Asus4
I'm not
in love this time this night

G
Can't help it if I space in a
daze
D
My eyes tune out the other way
G D Dsus2 D
I may switch off
and go in a daydream
G
In this head my thoughts are deep
Bm
And
sometimes I can't even speak
A G A
Would someone be and not pretend I'm
off again in my world

Gmaj7 Gadd6 Gmaj7
D Dsus2 D
Gmaj7 Gadd6
Gmaj7

Bm
It takes some time
C#5 D(V)
Mellow out, party it
up
Em
But don't fall down
D(V) G A
Don't get caught sneak out of the
house

G
Can't help it if I space in a daze
D
My eyes tune out
the other way
G D Dsus2 D
I may switch off and go in a daydream
G
In
this head my thoughts are deep
Bm
And sometimes I can't even speak
A G
A
Would someone be and not pretend I'm off again in my world

G

Can't help it if I space in a daze
D
My eyes tune out the other
way
G D Dsus2 D
I may switch off and go in a daydream
G
In this head
my thoughts are deep
Bm
And sometimes I can't even speak
A G A
Would
someone be and not pretend I'm off again in my world

_________________
Sayfa başına dön Aşağa gitmek
Kullanıcı profilini gör http://darkrock.clubme.net
 
GİTARLA ÇALMAK İSTEYENLER
Sayfa başına dön 
1 sayfadaki 1 sayfası
 Similar topics
-
» 100 Şehid Sevabı Almak İstermisiniz..

Bu forumun müsaadesi var:Bu forumdaki mesajlara cevap veremezsiniz
 :: AVRİL LAVİGNE İLE İLGİLİ BÖLÜM :: Avril Lavigne Müzikler-
Buraya geçin: